ギター_スウィープ奏法の練習



ギター・スウィープ奏法の練習

スイープ習得のコツは以下の通りです。


2弦スウィープアルペジオ

ダウンスウィープの練習

三連符のパターンで構成されたアルペジオフレーズです。

ピッキングは「Down -> Down -> Up」で行い、2弦と1弦を連続して弾きます。

ここで、「Down -> Down」の際には弦を個別にピッキングするのではなく、一度のダウンストロークで二つの音を出すように心がけます。

とにかくゆっくりしたテンポから始めて、徐々にスピードを上げていくように練習します。

|---5-7---5-7---5-7---5-7-|---7-10---7-10---7-10---7-10-|---7-10---7-10---7-10---7-10-|----8-12----8-12----8-12----8-12-|
|-6-----6-----6-----6-----|-8------8------8------8------|-9------9------9------9------|-10------10------10------10------|
|-------------------------|-----------------------------|-----------------------------|---------------------------------|
|-------------------------|-----------------------------|-----------------------------|---------------------------------|
|-------------------------|-----------------------------|-----------------------------|---------------------------------|
|-------------------------|-----------------------------|-----------------------------|---------------------------------|
  D D U D D U D D U D D U ...
D:DownPicking
U:UpPicking

ダウンスウィープ&アップスウィープの練習

ピッキングストローク(ダウン・アップ)の往復で4つの音を出す、16分音符のアルペジオパターンです。

弦を個別にピッキングするのではなく、一度のダウンストロークで音を二つ出すように気をつけます。

リズムに合わせて滑らかにピッキングできるように練習します。

|-5-3-----5-3-----5-3-----5-3----|-8-5-----8-5-----8-5-----8-5----|-10-8------12-8------11-8------12-8-----|----------|
|-----5-3-----5-3-----5-3-----5-3|-----8-5-----8-5-----8-5-----8-5|------10-8------10-8------10-8------10-8|----------|
|--------------------------------|--------------------------------|----------------------------------------|--- ./ ---|
|--------------------------------|--------------------------------|----------------------------------------|--- /. ---|
|--------------------------------|--------------------------------|----------------------------------------|----------|
|--------------------------------|--------------------------------|----------------------------------------|----------|
  D U U D D U U D D U U D D U U D ...

3弦&4弦のスウィープアルペジオ

3弦以上のスウィープでは、「プリング&ハンマリング」「ジョイント」などのテクニックを頻繁に使用することになります。

弾き方に決まりはありませんが、弾きやすいように(キレイに聞こえるように)様々なテクニックを併用することが大切です。

演奏動作を考えること自体がスウィープのテクニックといえます。


スウィープとプリング&ハンマリング

スウィープ奏法では、出だしの音を「アップピッキング→プリング」とはじめると弾きやすく、なめらかに聞こえます。

プリングしている際にもピッキングストロークをとめることなく、タイミングを合わせるためにゆっくり動作させることがポイントです。

|-8-5-------5-8-5-------5-|-10-7-------7-10-7-------7-|-12-8---------8-12-8---------8-|-10-7-------7-10-7-------7-|
|-----6---6-------6---6---|------8---8--------8---8---|------10---10--------10---10---|------8---8--------8---8---|
|-------5-----------5-----|--------7------------7-----|---------9--------------9------|--------7------------7-----|
|-------------------------|---------------------------|-------------------------------|---------------------------|
|-------------------------|---------------------------|-------------------------------|---------------------------|
|-------------------------|---------------------------|-------------------------------|---------------------------|
  U p U D D D U p U D D D ...

ハンマリングは上昇フレーズで利用されます。

上昇/下降を終えた際のピッキング方向切り替えのタイミングでプリングやハンマリングを織り交ぜることで音をなめらかにします。

|-------------------------|-------------------------|---------------------|----------------------|
|-------------------------|-------------------------|---------------------|----------------------|
|----------9--12-9--------|-----------7-10--7-------|---------5--7--5-----|----------7-9-7-------|
|-------10----------10----|--------9-----------9----|-------7---------7---|--------9-------9-----|
|-8--12----------------12-|-7--10----------------10-|-5--8--------------8-|-7--10------------10--|
|-------------------------|-------------------------|---------------------|----------------------|
  D  h  D  D  U  p  U  U    D  h  D  D  U  p  U  U ...


ジョイント奏法について

スウィープでは、単一の指で複数の弦を押さえるテクニックが必要になります。

これは「ジョイント奏法」と呼ばれ、指の屈伸(ジョイント)によってミュートと押弦を使い分けるテクニックです。


以下のような三連符アルペジオでは、2つ目のフォームで人差し指で3つの弦を押さえます。

人差し指の屈伸によってミュートと押弦を行い、和音が鳴らないように弾きます。

|-10-6-------6-11-8-------8-|-8-5-------5-10-6-------6-|-6-3-------3-6-3-------3-|-8-5-------5-8-5-------5-|
|------8---8--------8---8---|-----6---6--------8---8---|-----4---4-------5---5---|-----6---6-------7---7---|
|--------7------------8-----|-------5------------7-----|-------3-----------6-----|-------5-----------8-----|
|---------------------------|--------------------------|-------------------------|-------------------------|
|---------------------------|--------------------------|-------------------------|-------------------------|
|---------------------------|--------------------------|-------------------------|-------------------------|
  4  1 2 1 2 1 4  1 1 1 1 1
左手の指使い(1:人指し指, 2:中指, 3:薬指, 4:小指)

全ての指でジョイントテクニックを使えるようになると、さまざまなフレーズを弾きやすくなります。

以下は同じフレーズでも指使いを変えて演奏するための練習フレーズです。

|-14-10----------------10-15-10----------------10-|-14-10----------------10-15-10----------------10-|
|-------10----------10----------10----------10----|-------10----------10---------10----------10-----|
|----------11----11----------------12----12-------|----------11----11---------------12----12--------|
|-------------12----------------------12----------|-------------12---------------------12-----------|
|-------------------------------------------------|-------------------------------------------------|
|-------------------------------------------------|-------------------------------------------------|
  4  1  1  2  3  2  1  1  4  1  1  3  3  3  1  1    4  1  1  2  3  2  1  1  4  1  1  2  2  2  1  1
 左手の指使い(1:人指し指, 2:中指, 3:薬指, 4:小指)

ビックスウィープ

5弦、6弦にまたがったスウィープを「ビックスウィープ」といいます。

各弦でコードの構成音を弾いていくパターンが多用されます。

3和音コードであれば各弦で「1度→3度→5度」を弾く形式となります。


メジャー型スウィープの基本フォーム

パターンAとパターンBは、ルート音を5弦に持つ場合のフォームとなります。

パターンCはルート音を6弦に持つ場合のフォームとなります。

コードの押さえ方とほぼ同じフォームです。

Pattern A                Pattern B                        Pattern C
--|-3-|---|---|-5-|--    --|-5-|---|---|---|---|-R-|--    --|-R-|---|---|---|-3-|--
--|---|-R-|---|---|--    --|---|---|-3-|---|---|---|--    --|-5-|---|---|---|---|--
--|-5-|---|---|---|--    --|---|---|-R-|---|---|---|--    --|---|-3-|---|---|---|--
--|---|---|-3-|---|--    --|---|---|-5-|---|---|---|--    --|---|---|-R-|---|---|--
--|---|---|---|(R)|--    --|(R)|---|---|---|-3-|---|--    --|---|---|-5-|---|---|--
--|---|---|---|---|--    --|---|---|---|---|---|---|--    --|(R)|---|---|---|-3-|--

マイナー型スウィープの基本フォーム

パターンAとパターンBはルート音を5弦に持つ場合、パターンCはルート音を6弦に持つ場合のフォームとなります。

Pattern A                  Pattern B                      Pattern C
--|-3-|---|---|---|-5-|--  --|-5-|---|---|---|---|-R-|--  --|-R-|---|---|-3-|---|--
--|---|---|-R-|---|---|--  --|---|-3-|---|---|---|---|--  --|-5-|---|---|---|---|--
--|---|-5-|---|---|---|--  --|---|---|-R-|---|---|---|--  --|-3-|---|---|---|---|--
--|---|---|-3-|---|---|--  --|---|---|-5-|---|---|---|--  --|---|---|-R-|---|---|--
--|---|---|---|---|(R)|--  --|(R)|---|---|-3-|---|---|--  --|---|---|-5-|---|---|--
--|---|---|---|---|---|--  --|---|---|---|---|---|---|--  --|(R)|---|---|-3-|---|--

カノン・コードでのビックスウィープ

「E→B→C#m→G#m→A→E→A→B」のコードを「1度→3度→5度」の順に8分音符で弾きます。

|-------------------12-16-|-14-11-------------------|--------------------9-12-|-11--7-------------------|
|----------------12-------|-------12----------------|-----------------9-------|--------7----------------|
|-------------13----------|----------11-------------|--------------9----------|-----------8-------------|
|----------14-------------|-------------13----------|----------11-------------|--------------9----------|
|-------14----------------|----------------14-------|-------11----------------|-----------------9-------|
|-12-16-------------------|-------------------14-11-|--9-12-------------------|-------------------11--7-|

|-------------------5--9--|-7--4--------------------|-------------------5--9--|-11--7-------------------|
|----------------5--------|-------5-----------------|----------------5--------|--------7----------------|
|-------------6-----------|----------4--------------|-------------6-----------|-----------8-------------|
|----------7--------------|-------------6-----------|----------7--------------|--------------9----------|
|-------7-----------------|----------------7--------|-------7-----------------|-----------------9-------|
|-5--9--------------------|-------------------7--4--|-5--9--------------------|-------------------11--7-|




関連ページ




スポンサード リンク